ISO-10303-21;
HEADER;
FILE_DESCRIPTION (( 'STEP AP203' ),
    '1' );
FILE_NAME ('Q-QZWP-R4-25.4-1030-M.STEP',
    '2020-12-23T01:26:49',
    ( '' ),
    ( '' ),
    'SwSTEP 2.0',
    'SolidWorks 2020',
    '' );
FILE_SCHEMA (( 'CONFIG_CONTROL_DESIGN' ));
ENDSEC;

DATA;
#1 = LOCAL_TIME ( 9, 26, 49.00000000000000000, #31 ) ;
#2 = DIRECTION ( 'NONE',  ( -1.000000000000000000, -0.000000000000000000, -0.000000000000000000 ) ) ;
#3 = DESIGN_CONTEXT ( 'detailed design', #136, 'design' ) ;
#4 = AXIS2_PLACEMENT_3D ( 'NONE', #126, #2, #82 ) ;
#5 = CARTESIAN_POINT ( 'NONE',  ( -3.000000000000000000, 0.000000000000000000, 0.000000000000000000 ) ) ;
#6 = FACE_OUTER_BOUND ( 'NONE', #89, .T. ) ;
#7 = APPROVAL ( #85, 'UNSPECIFIED' ) ;
#8 = APPROVAL ( #86, 'UNSPECIFIED' ) ;
#9 = CC_DESIGN_APPROVAL ( #137, ( #160 ) ) ;
#10 = CARTESIAN_POINT ( 'NONE',  ( 3.000000000000000000, 0.000000000000000000, 0.000000000000000000 ) ) ;
#11 = DIRECTION ( 'NONE',  ( -1.000000000000000000, -0.000000000000000000, -0.000000000000000000 ) ) ;
#12 = DIRECTION ( 'NONE',  ( 1.000000000000000000, 0.000000000000000000, 0.000000000000000000 ) ) ;
#13 = PERSON_AND_ORGANIZATION ( #104, #88 ) ;
#14 = APPLICATION_PROTOCOL_DEFINITION ( 'international standard', 'config_control_design', 1994, #29 ) ;
#15 = APPROVAL_PERSON_ORGANIZATION ( #13, #137, #108 ) ;
#16 = PERSON_AND_ORGANIZATION ( #104, #88 ) ;
#17 = MANIFOLD_SOLID_BREP ( 'Ðý×', #99 ) ;
#18 = CALENDAR_DATE ( 2020, 23, 12 ) ;
#19 = APPROVAL_PERSON_ORGANIZATION ( #45, #8, #117 ) ;
#20 = CYLINDRICAL_SURFACE ( 'NONE', #4, 15.00000000000000000 ) ;
#21 = CC_DESIGN_PERSON_AND_ORGANIZATION_ASSIGNMENT ( #16, #84, ( #33 ) ) ;
#22 = ORIENTED_EDGE ( 'NONE', *, *, #159, .F. ) ;
#23 = VERTEX_POINT ( 'NONE', #131 ) ;
#24 = CIRCLE ( 'NONE', #47, 15.00000000000000000 ) ;
#25 = DIRECTION ( 'NONE',  ( -1.000000000000000000, 0.000000000000000000, -0.000000000000000000 ) ) ;
#26 = AXIS2_PLACEMENT_3D ( 'NONE', #164, #102, #40 ) ;
#27 = PLANE ( 'NONE',  #114 ) ;
#28 = COORDINATED_UNIVERSAL_TIME_OFFSET ( 8, 0, .AHEAD. ) ;
#29 = APPLICATION_CONTEXT ( 'configuration controlled 3d designs of mechanical parts and assemblies' ) ;
#30 = CARTESIAN_POINT ( 'NONE',  ( -3.000000000000000000, 0.000000000000000000, 15.00000000000000000 ) ) ;
#31 = COORDINATED_UNIVERSAL_TIME_OFFSET ( 8, 0, .AHEAD. ) ;
#32 = CC_DESIGN_PERSON_AND_ORGANIZATION_ASSIGNMENT ( #149, #87, ( #36 ) ) ;
#33 = PRODUCT ( 'Q-QZWP-R4-25.4-1030-M', 'Q-QZWP-R4-25.4-1030-M', '', ( #174 ) ) ;
#34 = EDGE_CURVE ( 'NONE', #142, #23, #35, .T. ) ;
#35 = CIRCLE ( 'NONE', #66, 15.00000000000000000 ) ;
#36 = PRODUCT_DEFINITION_FORMATION_WITH_SPECIFIED_SOURCE ( 'ANY', '', #33, .NOT_KNOWN. ) ;
#37 = ADVANCED_FACE ( 'NONE', ( #6 ), #113, .T. ) ;
#38 = CC_DESIGN_APPROVAL ( #8, ( #59 ) ) ;
#39 = EDGE_LOOP ( 'NONE', ( #22, #79 ) ) ;
#40 = DIRECTION ( 'NONE',  ( 0.000000000000000000, 0.000000000000000000, 1.000000000000000000 ) ) ;
#41 = DIRECTION ( 'NONE',  ( 0.000000000000000000, 0.000000000000000000, 1.000000000000000000 ) ) ;
#42 = CALENDAR_DATE ( 2020, 23, 12 ) ;
#43 = CIRCLE ( 'NONE', #150, 15.00000000000000000 ) ;
#44 =( LENGTH_UNIT ( ) NAMED_UNIT ( * ) SI_UNIT ( .MILLI., .METRE. ) );
#45 = PERSON_AND_ORGANIZATION ( #104, #88 ) ;
#46 = ADVANCED_BREP_SHAPE_REPRESENTATION ( 'Q-QZWP-R4-25.4-1030-M', ( #17, #124 ), #110 ) ;
#47 = AXIS2_PLACEMENT_3D ( 'NONE', #133, #118, #170 ) ;
#48 = LOCAL_TIME ( 9, 26, 49.00000000000000000, #28 ) ;
#49 = LOCAL_TIME ( 9, 26, 49.00000000000000000, #58 ) ;
#50 = ORIENTED_EDGE ( 'NONE', *, *, #34, .F. ) ;
#51 = VERTEX_POINT ( 'NONE', #101 ) ;
#52 = ADVANCED_FACE ( 'NONE', ( #91 ), #20, .T. ) ;
#53 = DIRECTION ( 'NONE',  ( -0.000000000000000000, 0.000000000000000000, 1.000000000000000000 ) ) ;
#54 = DATE_AND_TIME ( #42, #1 ) ;
#55 = CALENDAR_DATE ( 2020, 23, 12 ) ;
#56 = EDGE_CURVE ( 'NONE', #51, #23, #83, .T. ) ;
#57 = DIRECTION ( 'NONE',  ( 1.000000000000000000, 0.000000000000000000, 0.000000000000000000 ) ) ;
#58 = COORDINATED_UNIVERSAL_TIME_OFFSET ( 8, 0, .AHEAD. ) ;
#59 = SECURITY_CLASSIFICATION ( '', '', #147 ) ;
#60 = EDGE_CURVE ( 'NONE', #144, #142, #135, .T. ) ;
#61 = ORIENTED_EDGE ( 'NONE', *, *, #159, .T. ) ;
#62 = PRODUCT_RELATED_PRODUCT_CATEGORY ( 'detail', '', ( #33 ) ) ;
#63 = DIRECTION ( 'NONE',  ( -1.000000000000000000, -0.000000000000000000, -0.000000000000000000 ) ) ;
#64 = ORIENTED_EDGE ( 'NONE', *, *, #74, .T. ) ;
#65 = ADVANCED_FACE ( 'NONE', ( #172 ), #27, .F. ) ;
#66 = AXIS2_PLACEMENT_3D ( 'NONE', #5, #63, #112 ) ;
#67 = PLANE ( 'NONE',  #92 ) ;
#68 = DIRECTION ( 'NONE',  ( -1.000000000000000000, -0.000000000000000000, -0.000000000000000000 ) ) ;
#69 = CALENDAR_DATE ( 2020, 23, 12 ) ;
#70 = DIRECTION ( 'NONE',  ( 0.000000000000000000, 0.000000000000000000, -1.000000000000000000 ) ) ;
#71 = APPROVAL_STATUS ( 'not_yet_approved' ) ;
#72 = PERSON_AND_ORGANIZATION ( #104, #88 ) ;
#73 = DATE_AND_TIME ( #18, #48 ) ;
#74 = EDGE_CURVE ( 'NONE', #23, #142, #123, .T. ) ;
#75 = CC_DESIGN_DATE_AND_TIME_ASSIGNMENT ( #121, #169, ( #160 ) ) ;
#76 = EDGE_LOOP ( 'NONE', ( #129, #64 ) ) ;
#77 = ADVANCED_FACE ( 'NONE', ( #103 ), #67, .F. ) ;
#78 = ORIENTED_EDGE ( 'NONE', *, *, #60, .F. ) ;
#79 = ORIENTED_EDGE ( 'NONE', *, *, #165, .F. ) ;
#80 = CC_DESIGN_PERSON_AND_ORGANIZATION_ASSIGNMENT ( #72, #173, ( #59 ) ) ;
#81 = CARTESIAN_POINT ( 'NONE',  ( -1.614212418857619014, 0.000000000000000000, 15.00000000000000000 ) ) ;
#82 = DIRECTION ( 'NONE',  ( 0.000000000000000000, 0.000000000000000000, 1.000000000000000000 ) ) ;
#83 = LINE ( 'NONE', #146, #166 ) ;
#84 = PERSON_AND_ORGANIZATION_ROLE ( 'design_owner' ) ;
#85 = APPROVAL_STATUS ( 'not_yet_approved' ) ;
#86 = APPROVAL_STATUS ( 'not_yet_approved' ) ;
#87 = PERSON_AND_ORGANIZATION_ROLE ( 'design_supplier' ) ;
#88 = ORGANIZATION ( 'UNSPECIFIED', 'UNSPECIFIED', '' ) ;
#89 = EDGE_LOOP ( 'NONE', ( #152, #167, #153, #163 ) ) ;
#90 = ORIENTED_EDGE ( 'NONE', *, *, #56, .T. ) ;
#91 = FACE_OUTER_BOUND ( 'NONE', #127, .T. ) ;
#92 = AXIS2_PLACEMENT_3D ( 'NONE', #145, #25, #53 ) ;
#93 = LOCAL_TIME ( 9, 26, 49.00000000000000000, #171 ) ;
#94 =( NAMED_UNIT ( * ) PLANE_ANGLE_UNIT ( ) SI_UNIT ( $, .RADIAN. ) );
#95 = APPLICATION_PROTOCOL_DEFINITION ( 'international standard', 'config_control_design', 1994, #136 ) ;
#96 = CARTESIAN_POINT ( 'NONE',  ( 0.000000000000000000, 0.000000000000000000, 0.000000000000000000 ) ) ;
#97 = CALENDAR_DATE ( 2020, 23, 12 ) ;
#98 = PERSON_AND_ORGANIZATION ( #104, #88 ) ;
#99 = CLOSED_SHELL ( 'NONE', ( #52, #77, #37, #65 ) ) ;
#100 = CC_DESIGN_PERSON_AND_ORGANIZATION_ASSIGNMENT ( #175, #122, ( #160 ) ) ;
#101 = CARTESIAN_POINT ( 'NONE',  ( 3.000000000000000000, 1.836970198721029589E-15, -15.00000000000000000 ) ) ;
#102 = DIRECTION ( 'NONE',  ( -1.000000000000000000, -0.000000000000000000, -0.000000000000000000 ) ) ;
#103 = FACE_OUTER_BOUND ( 'NONE', #39, .T. ) ;
#104 = PERSON ( 'UNSPECIFIED', 'UNSPECIFIED', 'UNSPECIFIED', ('UNSPECIFIED'), ('UNSPECIFIED'), ('UNSPECIFIED') ) ;
#105 = SHAPE_DEFINITION_REPRESENTATION ( #116, #46 ) ;
#106 = DIRECTION ( 'NONE',  ( -1.000000000000000000, -0.000000000000000000, -0.000000000000000000 ) ) ;
#107 = APPROVAL_DATE_TIME ( #109, #7 ) ;
#108 = APPROVAL_ROLE ( '' ) ;
#109 = DATE_AND_TIME ( #55, #93 ) ;
#110 =( GEOMETRIC_REPRESENTATION_CONTEXT ( 3 ) GLOBAL_UNCERTAINTY_ASSIGNED_CONTEXT ( ( #143 ) ) GLOBAL_UNIT_ASSIGNED_CONTEXT ( ( #44, #94, #139 ) ) REPRESENTATION_CONTEXT ( 'NONE', 'WORKASPACE' ) );
#111 = APPROVAL_PERSON_ORGANIZATION ( #157, #7, #156 ) ;
#112 = DIRECTION ( 'NONE',  ( 0.000000000000000000, 0.000000000000000000, 1.000000000000000000 ) ) ;
#113 = CYLINDRICAL_SURFACE ( 'NONE', #26, 15.00000000000000000 ) ;
#114 = AXIS2_PLACEMENT_3D ( 'NONE', #154, #12, #70 ) ;
#115 = DIRECTION ( 'NONE',  ( -1.000000000000000000, -0.000000000000000000, -0.000000000000000000 ) ) ;
#116 = PRODUCT_DEFINITION_SHAPE ( 'NONE', 'NONE',  #160 ) ;
#117 = APPROVAL_ROLE ( '' ) ;
#118 = DIRECTION ( 'NONE',  ( -1.000000000000000000, -0.000000000000000000, -0.000000000000000000 ) ) ;
#119 = DIRECTION ( 'NONE',  ( 0.000000000000000000, 0.000000000000000000, 1.000000000000000000 ) ) ;
#120 = CARTESIAN_POINT ( 'NONE',  ( -3.000000000000000000, 0.000000000000000000, 0.000000000000000000 ) ) ;
#121 = DATE_AND_TIME ( #69, #49 ) ;
#122 = PERSON_AND_ORGANIZATION_ROLE ( 'creator' ) ;
#123 = CIRCLE ( 'NONE', #162, 15.00000000000000000 ) ;
#124 = AXIS2_PLACEMENT_3D ( 'NONE', #96, #119, #57 ) ;
#125 = LOCAL_TIME ( 9, 26, 49.00000000000000000, #138 ) ;
#126 = CARTESIAN_POINT ( 'NONE',  ( -1.614212418857619014, 0.000000000000000000, 0.000000000000000000 ) ) ;
#127 = EDGE_LOOP ( 'NONE', ( #61, #90, #50, #78 ) ) ;
#128 = VECTOR ( 'NONE', #106, 1000.000000000000000 ) ;
#129 = ORIENTED_EDGE ( 'NONE', *, *, #34, .T. ) ;
#130 = CC_DESIGN_DATE_AND_TIME_ASSIGNMENT ( #140, #148, ( #59 ) ) ;
#131 = CARTESIAN_POINT ( 'NONE',  ( -3.000000000000000000, 1.836970198721029589E-15, -15.00000000000000000 ) ) ;
#132 = CARTESIAN_POINT ( 'NONE',  ( 3.000000000000000000, 0.000000000000000000, 15.00000000000000000 ) ) ;
#133 = CARTESIAN_POINT ( 'NONE',  ( 3.000000000000000000, 0.000000000000000000, 0.000000000000000000 ) ) ;
#134 = APPROVAL_DATE_TIME ( #54, #8 ) ;
#135 = LINE ( 'NONE', #81, #128 ) ;
#136 = APPLICATION_CONTEXT ( 'configuration controlled 3d designs of mechanical parts and assemblies' ) ;
#137 = APPROVAL ( #71, 'UNSPECIFIED' ) ;
#138 = COORDINATED_UNIVERSAL_TIME_OFFSET ( 8, 0, .AHEAD. ) ;
#139 =( NAMED_UNIT ( * ) SI_UNIT ( $, .STERADIAN. ) SOLID_ANGLE_UNIT ( ) );
#140 = DATE_AND_TIME ( #97, #125 ) ;
#141 = CC_DESIGN_SECURITY_CLASSIFICATION ( #59, ( #36 ) ) ;
#142 = VERTEX_POINT ( 'NONE', #30 ) ;
#143 = UNCERTAINTY_MEASURE_WITH_UNIT (LENGTH_MEASURE( 1.000000000000000082E-05 ), #44, 'distance_accuracy_value', 'NONE');
#144 = VERTEX_POINT ( 'NONE', #132 ) ;
#145 = CARTESIAN_POINT ( 'NONE',  ( 3.000000000000000888, 12.69999999999999929, 0.000000000000000000 ) ) ;
#146 = CARTESIAN_POINT ( 'NONE',  ( -1.614212418857619014, 1.836970198721029589E-15, -15.00000000000000000 ) ) ;
#147 = SECURITY_CLASSIFICATION_LEVEL ( 'unclassified' ) ;
#148 = DATE_TIME_ROLE ( 'classification_date' ) ;
#149 = PERSON_AND_ORGANIZATION ( #104, #88 ) ;
#150 = AXIS2_PLACEMENT_3D ( 'NONE', #10, #115, #41 ) ;
#151 = CC_DESIGN_PERSON_AND_ORGANIZATION_ASSIGNMENT ( #98, #155, ( #36 ) ) ;
#152 = ORIENTED_EDGE ( 'NONE', *, *, #56, .F. ) ;
#153 = ORIENTED_EDGE ( 'NONE', *, *, #60, .T. ) ;
#154 = CARTESIAN_POINT ( 'NONE',  ( -3.000000000000000888, 12.69999999999999929, 0.000000000000000000 ) ) ;
#155 = PERSON_AND_ORGANIZATION_ROLE ( 'creator' ) ;
#156 = APPROVAL_ROLE ( '' ) ;
#157 = PERSON_AND_ORGANIZATION ( #104, #88 ) ;
#158 = APPROVAL_DATE_TIME ( #73, #137 ) ;
#159 = EDGE_CURVE ( 'NONE', #144, #51, #43, .T. ) ;
#160 = PRODUCT_DEFINITION ( 'UNKNOWN', '', #36, #3 ) ;
#161 = CC_DESIGN_APPROVAL ( #7, ( #36 ) ) ;
#162 = AXIS2_PLACEMENT_3D ( 'NONE', #120, #11, #168 ) ;
#163 = ORIENTED_EDGE ( 'NONE', *, *, #74, .F. ) ;
#164 = CARTESIAN_POINT ( 'NONE',  ( -1.614212418857619014, 0.000000000000000000, 0.000000000000000000 ) ) ;
#165 = EDGE_CURVE ( 'NONE', #51, #144, #24, .T. ) ;
#166 = VECTOR ( 'NONE', #68, 1000.000000000000000 ) ;
#167 = ORIENTED_EDGE ( 'NONE', *, *, #165, .T. ) ;
#168 = DIRECTION ( 'NONE',  ( 0.000000000000000000, 0.000000000000000000, 1.000000000000000000 ) ) ;
#169 = DATE_TIME_ROLE ( 'creation_date' ) ;
#170 = DIRECTION ( 'NONE',  ( 0.000000000000000000, 0.000000000000000000, 1.000000000000000000 ) ) ;
#171 = COORDINATED_UNIVERSAL_TIME_OFFSET ( 8, 0, .AHEAD. ) ;
#172 = FACE_OUTER_BOUND ( 'NONE', #76, .T. ) ;
#173 = PERSON_AND_ORGANIZATION_ROLE ( 'classification_officer' ) ;
#174 = MECHANICAL_CONTEXT ( 'NONE', #29, 'mechanical' ) ;
#175 = PERSON_AND_ORGANIZATION ( #104, #88 ) ;
ENDSEC;
END-ISO-10303-21;
